What Can't Be Erased

vibration stuff

Moderators: brassman2000, __redruM

What Can't Be Erased

Postby OUTERSPACE on Fri Jul 31, 2009 11:49 am

In these months I've always this song on my mind but I've never tried to find the chords..anyone already did it?
I remember that the floatingdebris site had a lot of tabs but now it's gone..where?
User avatar
OUTERSPACE
 
Posts: 111
Joined: Mon Mar 10, 2008 7:16 am

Re: What Can't Be Erased

Postby brassman2000 on Fri Jul 31, 2009 3:34 pm

No idea about floating Debris but here's my attempt. You even get the solo you lucky lucky talkscaper you!

Code: Select all
What Can't Be Erased

G                         D (Dsus4/D ornamentation)
If you could have seen my face
          Em
Reflected off
              A7 (A7sus4/A7 ornamentation)
A lone dinner plate

G                B7
Trying to erase
              C       D6 (xx0432) D (Dsus4/D ornamentation)
What can't be erased


(same chords)

If you would have rung my phone
I would have said
I hate being alone

Trying to erase
What can't be erased




Solo:

G D Em Bsus4 B7 C D G

              G
e:-------------------------------
B:-------------------------------
G:--4-4-4-4-2-4------------------
D:-------------------------------
A:-------------------------------
E:-------------------------------


                D
e:------3-2----------------------
B:----------5-3-------3----------
G:--2-4---------4-------4-2\-----
D:-------------------------------
A:-------------------------------
E:-------------------------------

    Em
e:-------------------------------
B:-------------------------------
G:--4---4-4-4--------------------
D:-------------------------------
A:-------------------------------
E:-------------------------------

                Bsus      B
e:------3-2----------------------
B:----------5-3-------5----------
G:--2-4---------4----4-----------
D:------------------------4------
A:-------------------------------
E:-------------------------------

             C
e:-------------------------------
B:-------------------------------
G:----2-2------------------------
D:--5--------5-4-5---------------
A:-------------------------------
E:-------------------------------

            D
e:-------------------------------
B:--------3----------------------
G:----2-4---42-------------------
D:--5----------------------------
A:-------------------------------
E:-------------------------------

                 G
e:-------------------------------
B:--5-3--------------------------
G:--------42---4--------3/4------
D:---------------5---------------
A:-------------------------------
E:-------------------------------


e:-------------------------------
B:---------------------3---------
G:--4-2----2-------2-4---4-------
D:------5---5--------------------
A:-------------------------------
E:-------------------------------




(verse chords)

I you would drive by now
We could sit
And laugh about how

I Tried to erase
What can't be erased
What can't be erased


As always, corrections are encouraged and more than welcome. Tell me when I mess up!
I has a PhD.
User avatar
brassman2000
 
Posts: 657
Joined: Fri Mar 21, 2008 5:13 am
Location: Aberystwyth, Edge of Nowhere.

Re: What Can't Be Erased

Postby OUTERSPACE on Fri Jul 31, 2009 6:00 pm

wow! perfect chords brassman! sounds great.. ;) thanks
User avatar
OUTERSPACE
 
Posts: 111
Joined: Mon Mar 10, 2008 7:16 am


Return to tabs * music * details * tech

Who is online

Users browsing this forum: No registered users and 4 guests

cron